ISO-10303-21;
HEADER;
FILE_DESCRIPTION (( 'STEP AP214' ),
    '1' );
FILE_NAME ('Z-TH1-P30.STEP',
    '2020-06-16T10:00:28',
    ( '' ),
    ( '' ),
    'SwSTEP 2.0',
    'SolidWorks 2017',
    '' );
FILE_SCHEMA (( 'AUTOMOTIVE_DESIGN' ));
ENDSEC;

DATA;
#1 = CARTESIAN_POINT ( 'NONE',  ( 0.0000000000000000000, 0.0000000000000000000, 0.0000000000000000000 ) ) ;
#2 =( NAMED_UNIT ( * ) SI_UNIT ( $, .STERADIAN. ) SOLID_ANGLE_UNIT ( ) );
#3 =( LENGTH_UNIT ( ) NAMED_UNIT ( * ) SI_UNIT ( .MILLI., .METRE. ) );
#4 = EDGE_LOOP ( 'NONE', ( #120, #59, #10, #9 ) ) ;
#5 = CYLINDRICAL_SURFACE ( 'NONE', #6, 6.750000000000000000 ) ;
#6 = AXIS2_PLACEMENT_3D ( 'NONE', #177, #16, #141 ) ;
#7 = AXIS2_PLACEMENT_3D ( 'NONE', #32, #208, #194 ) ;
#8 = STYLED_ITEM ( 'NONE', ( #133 ), #39 ) ;
#9 = ORIENTED_EDGE ( 'NONE', *, *, #125, .T. ) ;
#10 = ORIENTED_EDGE ( 'NONE', *, *, #69, .T. ) ;
#11 = DIRECTION ( 'NONE',  ( 0.0000000000000000000, 0.0000000000000000000, 1.000000000000000000 ) ) ;
#12 = CARTESIAN_POINT ( 'NONE',  ( -8.699999999999999300, 1.065442715258197200E-015, -8.000000000000000000 ) ) ;
#13 = DIRECTION ( 'NONE',  ( 1.000000000000000000, 0.0000000000000000000, 0.0000000000000000000 ) ) ;
#14 = AXIS2_PLACEMENT_3D ( 'NONE', #81, #42, #107 ) ;
#15 = VERTEX_POINT ( 'NONE', #124 ) ;
#16 = DIRECTION ( 'NONE',  ( 0.0000000000000000000, 0.0000000000000000000, 1.000000000000000000 ) ) ;
#17 = CIRCLE ( 'NONE', #92, 8.699999999999999300 ) ;
#18 = CARTESIAN_POINT ( 'NONE',  ( 0.0000000000000000000, 0.0000000000000000000, 0.0000000000000000000 ) ) ;
#19 =( LENGTH_UNIT ( ) NAMED_UNIT ( * ) SI_UNIT ( .MILLI., .METRE. ) );
#20 = EDGE_CURVE ( 'NONE', #99, #206, #22, .T. ) ;
#21 = PRESENTATION_LAYER_ASSIGNMENT (  '', '', ( #8 ) ) ;
#22 = CIRCLE ( 'NONE', #135, 6.750000000000000000 ) ;
#23 = AXIS2_PLACEMENT_3D ( 'NONE', #176, #62, #30 ) ;
#24 = VECTOR ( 'NONE', #179, 1000.000000000000000 ) ;
#25 = ORIENTED_EDGE ( 'NONE', *, *, #60, .F. ) ;
#26 = DIRECTION ( 'NONE',  ( 1.000000000000000000, 0.0000000000000000000, 0.0000000000000000000 ) ) ;
#27 = MECHANICAL_DESIGN_GEOMETRIC_PRESENTATION_REPRESENTATION (  '', ( #53 ), #174 ) ;
#28 = FILL_AREA_STYLE ('',( #203 ) ) ;
#29 = DIRECTION ( 'NONE',  ( 0.0000000000000000000, 0.0000000000000000000, 1.000000000000000000 ) ) ;
#30 = DIRECTION ( 'NONE',  ( 1.000000000000000000, 0.0000000000000000000, 0.0000000000000000000 ) ) ;
#31 = FACE_OUTER_BOUND ( 'NONE', #71, .T. ) ;
#32 = CARTESIAN_POINT ( 'NONE',  ( 0.0000000000000000000, 0.0000000000000000000, -8.000000000000000000 ) ) ;
#33 = CARTESIAN_POINT ( 'NONE',  ( 0.0000000000000000000, 0.0000000000000000000, -8.000000000000000000 ) ) ;
#34 = EDGE_CURVE ( 'NONE', #187, #159, #103, .T. ) ;
#35 = PRODUCT_CONTEXT ( 'NONE', #200, 'mechanical' ) ;
#36 =( NAMED_UNIT ( * ) SI_UNIT ( $, .STERADIAN. ) SOLID_ANGLE_UNIT ( ) );
#37 = CIRCLE ( 'NONE', #205, 8.699999999999999300 ) ;
#38 = MANIFOLD_SOLID_BREP ( 'Aufsatz-Linear austragen1', #67 ) ;
#39 = ADVANCED_BREP_SHAPE_REPRESENTATION ( 'Z-TH1-P30', ( #38, #55 ), #41 ) ;
#40 = ORIENTED_EDGE ( 'NONE', *, *, #202, .T. ) ;
#41 =( GEOMETRIC_REPRESENTATION_CONTEXT ( 3 ) GLOBAL_UNCERTAINTY_ASSIGNED_CONTEXT ( ( #143 ) ) GLOBAL_UNIT_ASSIGNED_CONTEXT ( ( #19, #148, #2 ) ) REPRESENTATION_CONTEXT ( 'NONE', 'WORKASPACE' ) );
#42 = DIRECTION ( 'NONE',  ( 0.0000000000000000000, 0.0000000000000000000, 1.000000000000000000 ) ) ;
#43 = CIRCLE ( 'NONE', #106, 6.750000000000000000 ) ;
#44 = DIRECTION ( 'NONE',  ( 0.0000000000000000000, 0.0000000000000000000, 1.000000000000000000 ) ) ;
#45 = ORIENTED_EDGE ( 'NONE', *, *, #202, .F. ) ;
#46 = DIRECTION ( 'NONE',  ( 0.0000000000000000000, 0.0000000000000000000, 1.000000000000000000 ) ) ;
#47 = CARTESIAN_POINT ( 'NONE',  ( 0.0000000000000000000, 0.0000000000000000000, -8.000000000000000000 ) ) ;
#48 = CYLINDRICAL_SURFACE ( 'NONE', #72, 8.699999999999999300 ) ;
#49 = ORIENTED_EDGE ( 'NONE', *, *, #20, .T. ) ;
#50 = APPLICATION_PROTOCOL_DEFINITION ( 'draft international standard', 'automotive_design', 1998, #115 ) ;
#51 = EDGE_CURVE ( 'NONE', #191, #15, #43, .T. ) ;
#52 = DIRECTION ( 'NONE',  ( 1.000000000000000000, 0.0000000000000000000, 0.0000000000000000000 ) ) ;
#53 = STYLED_ITEM ( 'NONE', ( #139 ), #38 ) ;
#54 = FACE_BOUND ( 'NONE', #170, .T. ) ;
#55 = AXIS2_PLACEMENT_3D ( 'NONE', #109, #165, #180 ) ;
#56 = CARTESIAN_POINT ( 'NONE',  ( 6.750000000000000000, 0.0000000000000000000, -8.000000000000000000 ) ) ;
#57 = COLOUR_RGB ( '',0.7529411764705882200, 0.7529411764705882200, 0.7529411764705882200 ) ;
#58 = DIRECTION ( 'NONE',  ( 0.0000000000000000000, 0.0000000000000000000, 1.000000000000000000 ) ) ;
#59 = ORIENTED_EDGE ( 'NONE', *, *, #155, .F. ) ;
#60 = EDGE_CURVE ( 'NONE', #187, #128, #189, .T. ) ;
#61 = CARTESIAN_POINT ( 'NONE',  ( -8.699999999999999300, 1.065442715258197200E-015, 0.0000000000000000000 ) ) ;
#62 = DIRECTION ( 'NONE',  ( 0.0000000000000000000, 0.0000000000000000000, 1.000000000000000000 ) ) ;
#63 = DIRECTION ( 'NONE',  ( 0.0000000000000000000, 0.0000000000000000000, 1.000000000000000000 ) ) ;
#64 = AXIS2_PLACEMENT_3D ( 'NONE', #33, #44, #111 ) ;
#65 = DIRECTION ( 'NONE',  ( 0.0000000000000000000, 0.0000000000000000000, 1.000000000000000000 ) ) ;
#66 = EDGE_LOOP ( 'NONE', ( #131, #82 ) ) ;
#67 = CLOSED_SHELL ( 'NONE', ( #156, #76, #77, #136, #157, #87 ) ) ;
#68 = SURFACE_STYLE_USAGE ( .BOTH. , #152 ) ;
#69 = EDGE_CURVE ( 'NONE', #15, #206, #186, .T. ) ;
#70 = VECTOR ( 'NONE', #90, 1000.000000000000000 ) ;
#71 = EDGE_LOOP ( 'NONE', ( #91, #80, #49, #108 ) ) ;
#72 = AXIS2_PLACEMENT_3D ( 'NONE', #47, #83, #94 ) ;
#73 = ORIENTED_EDGE ( 'NONE', *, *, #201, .T. ) ;
#74 = SHAPE_DEFINITION_REPRESENTATION ( #78, #39 ) ;
#75 = ORIENTED_EDGE ( 'NONE', *, *, #201, .F. ) ;
#76 = ADVANCED_FACE ( 'NONE', ( #145 ), #172, .T. ) ;
#77 = ADVANCED_FACE ( 'NONE', ( #196 ), #48, .T. ) ;
#78 = PRODUCT_DEFINITION_SHAPE ( 'NONE', 'NONE',  #184 ) ;
#79 =( NAMED_UNIT ( * ) PLANE_ANGLE_UNIT ( ) SI_UNIT ( $, .RADIAN. ) );
#80 = ORIENTED_EDGE ( 'NONE', *, *, #142, .T. ) ;
#81 = CARTESIAN_POINT ( 'NONE',  ( 0.0000000000000000000, 0.0000000000000000000, -8.000000000000000000 ) ) ;
#82 = ORIENTED_EDGE ( 'NONE', *, *, #34, .F. ) ;
#83 = DIRECTION ( 'NONE',  ( 0.0000000000000000000, 0.0000000000000000000, 1.000000000000000000 ) ) ;
#84 = PLANE ( 'NONE',  #101 ) ;
#85 = DIRECTION ( 'NONE',  ( 1.000000000000000000, 0.0000000000000000000, -0.0000000000000000000 ) ) ;
#86 = LINE ( 'NONE', #193, #102 ) ;
#87 = ADVANCED_FACE ( 'NONE', ( #209 ), #5, .F. ) ;
#88 = PRESENTATION_LAYER_ASSIGNMENT (  '', '', ( #53 ) ) ;
#89 = SURFACE_STYLE_USAGE ( .BOTH. , #140 ) ;
#90 = DIRECTION ( 'NONE',  ( 0.0000000000000000000, 0.0000000000000000000, 1.000000000000000000 ) ) ;
#91 = ORIENTED_EDGE ( 'NONE', *, *, #51, .F. ) ;
#92 = AXIS2_PLACEMENT_3D ( 'NONE', #1, #151, #52 ) ;
#93 = CIRCLE ( 'NONE', #182, 6.750000000000000000 ) ;
#94 = DIRECTION ( 'NONE',  ( 1.000000000000000000, 0.0000000000000000000, 0.0000000000000000000 ) ) ;
#95 = DIRECTION ( 'NONE',  ( 1.000000000000000000, 0.0000000000000000000, 0.0000000000000000000 ) ) ;
#96 = CARTESIAN_POINT ( 'NONE',  ( 6.750000000000000000, 0.0000000000000000000, 0.0000000000000000000 ) ) ;
#97 = APPLICATION_PROTOCOL_DEFINITION ( 'draft international standard', 'automotive_design', 1998, #200 ) ;
#98 = CIRCLE ( 'NONE', #64, 6.750000000000000000 ) ;
#99 = VERTEX_POINT ( 'NONE', #210 ) ;
#100 = UNCERTAINTY_MEASURE_WITH_UNIT (LENGTH_MEASURE( 1.000000000000000100E-005 ), #3, 'distance_accuracy_value', 'NONE');
#101 = AXIS2_PLACEMENT_3D ( 'NONE', #18, #63, #85 ) ;
#102 = VECTOR ( 'NONE', #207, 1000.000000000000000 ) ;
#103 = CIRCLE ( 'NONE', #14, 8.699999999999999300 ) ;
#104 = ORIENTED_EDGE ( 'NONE', *, *, #60, .T. ) ;
#105 =( LENGTH_UNIT ( ) NAMED_UNIT ( * ) SI_UNIT ( .MILLI., .METRE. ) );
#106 = AXIS2_PLACEMENT_3D ( 'NONE', #158, #58, #175 ) ;
#107 = DIRECTION ( 'NONE',  ( 1.000000000000000000, 0.0000000000000000000, 0.0000000000000000000 ) ) ;
#108 = ORIENTED_EDGE ( 'NONE', *, *, #69, .F. ) ;
#109 = CARTESIAN_POINT ( 'NONE',  ( 0.0000000000000000000, 0.0000000000000000000, 0.0000000000000000000 ) ) ;
#110 = CARTESIAN_POINT ( 'NONE',  ( 8.699999999999999300, 0.0000000000000000000, -8.000000000000000000 ) ) ;
#111 = DIRECTION ( 'NONE',  ( 1.000000000000000000, 0.0000000000000000000, 0.0000000000000000000 ) ) ;
#112 = ORIENTED_EDGE ( 'NONE', *, *, #166, .T. ) ;
#113 = CARTESIAN_POINT ( 'NONE',  ( -6.750000000000000000, 8.266365894244634300E-016, -8.000000000000000000 ) ) ;
#114 = ORIENTED_EDGE ( 'NONE', *, *, #34, .T. ) ;
#115 = APPLICATION_CONTEXT ( 'automotive_design' ) ;
#116 = PRODUCT_RELATED_PRODUCT_CATEGORY ( 'part', '', ( #126 ) ) ;
#117 = UNCERTAINTY_MEASURE_WITH_UNIT (LENGTH_MEASURE( 1.000000000000000100E-005 ), #105, 'distance_accuracy_value', 'NONE');
#118 =( NAMED_UNIT ( * ) PLANE_ANGLE_UNIT ( ) SI_UNIT ( $, .RADIAN. ) );
#119 = FACE_BOUND ( 'NONE', #123, .T. ) ;
#120 = ORIENTED_EDGE ( 'NONE', *, *, #142, .F. ) ;
#121 =( GEOMETRIC_REPRESENTATION_CONTEXT ( 3 ) GLOBAL_UNCERTAINTY_ASSIGNED_CONTEXT ( ( #100 ) ) GLOBAL_UNIT_ASSIGNED_CONTEXT ( ( #3, #118, #36 ) ) REPRESENTATION_CONTEXT ( 'NONE', 'WORKASPACE' ) );
#122 = CIRCLE ( 'NONE', #199, 8.699999999999999300 ) ;
#123 = EDGE_LOOP ( 'NONE', ( #132, #173 ) ) ;
#124 = CARTESIAN_POINT ( 'NONE',  ( 6.750000000000000000, 0.0000000000000000000, -8.000000000000000000 ) ) ;
#125 = EDGE_CURVE ( 'NONE', #206, #99, #93, .T. ) ;
#126 = PRODUCT ( 'Z-TH1-P30', 'Z-TH1-P30', '', ( #35 ) ) ;
#127 = FACE_OUTER_BOUND ( 'NONE', #211, .T. ) ;
#128 = VERTEX_POINT ( 'NONE', #61 ) ;
#129 = CARTESIAN_POINT ( 'NONE',  ( 0.0000000000000000000, 0.0000000000000000000, -8.000000000000000000 ) ) ;
#130 = FILL_AREA_STYLE ('',( #198 ) ) ;
#131 = ORIENTED_EDGE ( 'NONE', *, *, #166, .F. ) ;
#132 = ORIENTED_EDGE ( 'NONE', *, *, #125, .F. ) ;
#133 = PRESENTATION_STYLE_ASSIGNMENT (( #68 ) ) ;
#134 = ORIENTED_EDGE ( 'NONE', *, *, #51, .T. ) ;
#135 = AXIS2_PLACEMENT_3D ( 'NONE', #204, #11, #26 ) ;
#136 = ADVANCED_FACE ( 'NONE', ( #54, #162 ), #144, .F. ) ;
#137 =( NAMED_UNIT ( * ) SI_UNIT ( $, .STERADIAN. ) SOLID_ANGLE_UNIT ( ) );
#138 = SURFACE_STYLE_FILL_AREA ( #130 ) ;
#139 = PRESENTATION_STYLE_ASSIGNMENT (( #89 ) ) ;
#140 = SURFACE_SIDE_STYLE ('',( #146 ) ) ;
#141 = DIRECTION ( 'NONE',  ( 1.000000000000000000, 0.0000000000000000000, 0.0000000000000000000 ) ) ;
#142 = EDGE_CURVE ( 'NONE', #191, #99, #153, .T. ) ;
#143 = UNCERTAINTY_MEASURE_WITH_UNIT (LENGTH_MEASURE( 1.000000000000000100E-005 ), #19, 'distance_accuracy_value', 'NONE');
#144 = PLANE ( 'NONE',  #149 ) ;
#145 = FACE_OUTER_BOUND ( 'NONE', #181, .T. ) ;
#146 = SURFACE_STYLE_FILL_AREA ( #28 ) ;
#147 = VERTEX_POINT ( 'NONE', #160 ) ;
#148 =( NAMED_UNIT ( * ) PLANE_ANGLE_UNIT ( ) SI_UNIT ( $, .RADIAN. ) );
#149 = AXIS2_PLACEMENT_3D ( 'NONE', #178, #46, #161 ) ;
#150 = ORIENTED_EDGE ( 'NONE', *, *, #155, .T. ) ;
#151 = DIRECTION ( 'NONE',  ( 0.0000000000000000000, 0.0000000000000000000, 1.000000000000000000 ) ) ;
#152 = SURFACE_SIDE_STYLE ('',( #138 ) ) ;
#153 = LINE ( 'NONE', #113, #24 ) ;
#154 = COLOUR_RGB ( '',0.7529411764705882200, 0.7529411764705882200, 0.7529411764705882200 ) ;
#155 = EDGE_CURVE ( 'NONE', #15, #191, #98, .T. ) ;
#156 = ADVANCED_FACE ( 'NONE', ( #31 ), #168, .F. ) ;
#157 = ADVANCED_FACE ( 'NONE', ( #119, #127 ), #84, .T. ) ;
#158 = CARTESIAN_POINT ( 'NONE',  ( 0.0000000000000000000, 0.0000000000000000000, -8.000000000000000000 ) ) ;
#159 = VERTEX_POINT ( 'NONE', #110 ) ;
#160 = CARTESIAN_POINT ( 'NONE',  ( 8.699999999999999300, 0.0000000000000000000, 0.0000000000000000000 ) ) ;
#161 = DIRECTION ( 'NONE',  ( 1.000000000000000000, 0.0000000000000000000, -0.0000000000000000000 ) ) ;
#162 = FACE_OUTER_BOUND ( 'NONE', #66, .T. ) ;
#163 = DIRECTION ( 'NONE',  ( 1.000000000000000000, 0.0000000000000000000, 0.0000000000000000000 ) ) ;
#164 = CARTESIAN_POINT ( 'NONE',  ( -6.750000000000000000, 8.266365894244634300E-016, -8.000000000000000000 ) ) ;
#165 = DIRECTION ( 'NONE',  ( 0.0000000000000000000, 0.0000000000000000000, 1.000000000000000000 ) ) ;
#166 = EDGE_CURVE ( 'NONE', #159, #187, #122, .T. ) ;
#167 = MECHANICAL_DESIGN_GEOMETRIC_PRESENTATION_REPRESENTATION (  '', ( #8 ), #121 ) ;
#168 = CYLINDRICAL_SURFACE ( 'NONE', #23, 6.750000000000000000 ) ;
#169 = PRODUCT_DEFINITION_CONTEXT ( 'detailed design', #115, 'design' ) ;
#170 = EDGE_LOOP ( 'NONE', ( #150, #134 ) ) ;
#171 = ORIENTED_EDGE ( 'NONE', *, *, #212, .F. ) ;
#172 = CYLINDRICAL_SURFACE ( 'NONE', #7, 8.699999999999999300 ) ;
#173 = ORIENTED_EDGE ( 'NONE', *, *, #20, .F. ) ;
#174 =( GEOMETRIC_REPRESENTATION_CONTEXT ( 3 ) GLOBAL_UNCERTAINTY_ASSIGNED_CONTEXT ( ( #117 ) ) GLOBAL_UNIT_ASSIGNED_CONTEXT ( ( #105, #79, #137 ) ) REPRESENTATION_CONTEXT ( 'NONE', 'WORKASPACE' ) );
#175 = DIRECTION ( 'NONE',  ( 1.000000000000000000, 0.0000000000000000000, 0.0000000000000000000 ) ) ;
#176 = CARTESIAN_POINT ( 'NONE',  ( 0.0000000000000000000, 0.0000000000000000000, -8.000000000000000000 ) ) ;
#177 = CARTESIAN_POINT ( 'NONE',  ( 0.0000000000000000000, 0.0000000000000000000, -8.000000000000000000 ) ) ;
#178 = CARTESIAN_POINT ( 'NONE',  ( 0.0000000000000000000, 0.0000000000000000000, -8.000000000000000000 ) ) ;
#179 = DIRECTION ( 'NONE',  ( 0.0000000000000000000, 0.0000000000000000000, 1.000000000000000000 ) ) ;
#180 = DIRECTION ( 'NONE',  ( 1.000000000000000000, 0.0000000000000000000, 0.0000000000000000000 ) ) ;
#181 = EDGE_LOOP ( 'NONE', ( #112, #104, #45, #75 ) ) ;
#182 = AXIS2_PLACEMENT_3D ( 'NONE', #190, #65, #163 ) ;
#183 = VECTOR ( 'NONE', #185, 1000.000000000000000 ) ;
#184 = PRODUCT_DEFINITION ( 'UNKNOWN', '', #192, #169 ) ;
#185 = DIRECTION ( 'NONE',  ( 0.0000000000000000000, 0.0000000000000000000, 1.000000000000000000 ) ) ;
#186 = LINE ( 'NONE', #56, #70 ) ;
#187 = VERTEX_POINT ( 'NONE', #213 ) ;
#188 = ORIENTED_EDGE ( 'NONE', *, *, #212, .T. ) ;
#189 = LINE ( 'NONE', #12, #183 ) ;
#190 = CARTESIAN_POINT ( 'NONE',  ( 0.0000000000000000000, 0.0000000000000000000, 0.0000000000000000000 ) ) ;
#191 = VERTEX_POINT ( 'NONE', #164 ) ;
#192 = PRODUCT_DEFINITION_FORMATION_WITH_SPECIFIED_SOURCE ( 'ANY', '', #126, .NOT_KNOWN. ) ;
#193 = CARTESIAN_POINT ( 'NONE',  ( 8.699999999999999300, 0.0000000000000000000, -8.000000000000000000 ) ) ;
#194 = DIRECTION ( 'NONE',  ( 1.000000000000000000, 0.0000000000000000000, 0.0000000000000000000 ) ) ;
#195 = DIRECTION ( 'NONE',  ( 0.0000000000000000000, 0.0000000000000000000, 1.000000000000000000 ) ) ;
#196 = FACE_OUTER_BOUND ( 'NONE', #197, .T. ) ;
#197 = EDGE_LOOP ( 'NONE', ( #25, #114, #73, #171 ) ) ;
#198 = FILL_AREA_STYLE_COLOUR ( '', #57 ) ;
#199 = AXIS2_PLACEMENT_3D ( 'NONE', #129, #195, #95 ) ;
#200 = APPLICATION_CONTEXT ( 'automotive_design' ) ;
#201 = EDGE_CURVE ( 'NONE', #159, #147, #86, .T. ) ;
#202 = EDGE_CURVE ( 'NONE', #147, #128, #37, .T. ) ;
#203 = FILL_AREA_STYLE_COLOUR ( '', #154 ) ;
#204 = CARTESIAN_POINT ( 'NONE',  ( 0.0000000000000000000, 0.0000000000000000000, 0.0000000000000000000 ) ) ;
#205 = AXIS2_PLACEMENT_3D ( 'NONE', #214, #29, #13 ) ;
#206 = VERTEX_POINT ( 'NONE', #96 ) ;
#207 = DIRECTION ( 'NONE',  ( 0.0000000000000000000, 0.0000000000000000000, 1.000000000000000000 ) ) ;
#208 = DIRECTION ( 'NONE',  ( 0.0000000000000000000, 0.0000000000000000000, 1.000000000000000000 ) ) ;
#209 = FACE_OUTER_BOUND ( 'NONE', #4, .T. ) ;
#210 = CARTESIAN_POINT ( 'NONE',  ( -6.750000000000000000, 8.266365894244634300E-016, 0.0000000000000000000 ) ) ;
#211 = EDGE_LOOP ( 'NONE', ( #40, #188 ) ) ;
#212 = EDGE_CURVE ( 'NONE', #128, #147, #17, .T. ) ;
#213 = CARTESIAN_POINT ( 'NONE',  ( -8.699999999999999300, 1.065442715258197200E-015, -8.000000000000000000 ) ) ;
#214 = CARTESIAN_POINT ( 'NONE',  ( 0.0000000000000000000, 0.0000000000000000000, 0.0000000000000000000 ) ) ;
ENDSEC;
END-ISO-10303-21;
