ISO-10303-21;
HEADER;
FILE_DESCRIPTION (( 'STEP AP214' ),
    '1' );
FILE_NAME ('Z-RFC48-P03.STEP',
    '2017-11-21T12:49:57',
    ( 'dummy' ),
    ( 'Microsoft' ),
    'SwSTEP 2.0',
    'SolidWorks 2017',
    '' );
FILE_SCHEMA (( 'AUTOMOTIVE_DESIGN' ));
ENDSEC;

DATA;
#1 = CARTESIAN_POINT ( 'NONE',  ( -1.500000000000000000, 4.000000000000003600, 0.0000000000000000000 ) ) ;
#2 = DIRECTION ( 'NONE',  ( 1.000000000000000000, 0.0000000000000000000, 0.0000000000000000000 ) ) ;
#3 = VERTEX_POINT ( 'NONE', #107 ) ;
#4 = ORIENTED_EDGE ( 'NONE', *, *, #192, .F. ) ;
#5 =( NAMED_UNIT ( * ) SI_UNIT ( $, .STERADIAN. ) SOLID_ANGLE_UNIT ( ) );
#6 = ORIENTED_EDGE ( 'NONE', *, *, #152, .F. ) ;
#7 =( GEOMETRIC_REPRESENTATION_CONTEXT ( 3 ) GLOBAL_UNCERTAINTY_ASSIGNED_CONTEXT ( ( #104 ) ) GLOBAL_UNIT_ASSIGNED_CONTEXT ( ( #18, #118, #9 ) ) REPRESENTATION_CONTEXT ( 'NONE', 'WORKASPACE' ) );
#8 = DIRECTION ( 'NONE',  ( 1.000000000000000000, 0.0000000000000000000, 0.0000000000000000000 ) ) ;
#9 =( NAMED_UNIT ( * ) SI_UNIT ( $, .STERADIAN. ) SOLID_ANGLE_UNIT ( ) );
#10 = CARTESIAN_POINT ( 'NONE',  ( -1.500000000000000000, 4.000000000000003600, 8.000000000000000000 ) ) ;
#11 = CARTESIAN_POINT ( 'NONE',  ( 1.500000000000001300, 4.000000000000000000, 8.000000000000000000 ) ) ;
#12 = EDGE_CURVE ( 'NONE', #41, #130, #13, .T. ) ;
#13 = LINE ( 'NONE', #26, #30 ) ;
#14 = VECTOR ( 'NONE', #23, 1000.000000000000000 ) ;
#15 = SURFACE_STYLE_FILL_AREA ( #61 ) ;
#16 = MECHANICAL_DESIGN_GEOMETRIC_PRESENTATION_REPRESENTATION (  '', ( #79 ), #116 ) ;
#17 = MANIFOLD_SOLID_BREP ( 'Basis-Linear austragen', #108 ) ;
#18 =( LENGTH_UNIT ( ) NAMED_UNIT ( * ) SI_UNIT ( .MILLI., .METRE. ) );
#19 = ADVANCED_FACE ( 'NONE', ( #113 ), #162, .T. ) ;
#20 = DIRECTION ( 'NONE',  ( -1.000000000000000000, 1.156482317317870900E-015, 0.0000000000000000000 ) ) ;
#21 = ORIENTED_EDGE ( 'NONE', *, *, #189, .F. ) ;
#22 = CARTESIAN_POINT ( 'NONE',  ( -1.500000000000001300, 0.0000000000000000000, 8.000000000000000000 ) ) ;
#23 = DIRECTION ( 'NONE',  ( 1.000000000000000000, 0.0000000000000000000, 0.0000000000000000000 ) ) ;
#24 = ORIENTED_EDGE ( 'NONE', *, *, #35, .T. ) ;
#25 = LINE ( 'NONE', #156, #129 ) ;
#26 = CARTESIAN_POINT ( 'NONE',  ( -1.500000000000001300, 0.0000000000000000000, 0.0000000000000000000 ) ) ;
#27 = DIRECTION ( 'NONE',  ( 0.0000000000000000000, 1.000000000000000000, 0.0000000000000000000 ) ) ;
#28 = EDGE_CURVE ( 'NONE', #80, #187, #47, .T. ) ;
#29 = VECTOR ( 'NONE', #68, 1000.000000000000000 ) ;
#30 = VECTOR ( 'NONE', #2, 1000.000000000000000 ) ;
#31 = ADVANCED_FACE ( 'NONE', ( #98 ), #143, .F. ) ;
#32 = VECTOR ( 'NONE', #184, 1000.000000000000000 ) ;
#33 = PRESENTATION_LAYER_ASSIGNMENT (  '', '', ( #140 ) ) ;
#34 =( NAMED_UNIT ( * ) PLANE_ANGLE_UNIT ( ) SI_UNIT ( $, .RADIAN. ) );
#35 = EDGE_CURVE ( 'NONE', #3, #105, #51, .T. ) ;
#36 = DIRECTION ( 'NONE',  ( 3.252606517456510300E-016, 1.000000000000000000, 0.0000000000000000000 ) ) ;
#37 = DIRECTION ( 'NONE',  ( -1.156482317317870900E-015, -1.000000000000000000, 0.0000000000000000000 ) ) ;
#38 = DIRECTION ( 'NONE',  ( -1.000000000000000000, 0.0000000000000000000, -0.0000000000000000000 ) ) ;
#39 = AXIS2_PLACEMENT_3D ( 'NONE', #101, #115, #8 ) ;
#40 = ORIENTED_EDGE ( 'NONE', *, *, #56, .T. ) ;
#41 = VERTEX_POINT ( 'NONE', #170 ) ;
#42 = ADVANCED_FACE ( 'NONE', ( #77 ), #178, .T. ) ;
#43 = EDGE_LOOP ( 'NONE', ( #198, #74, #89, #188 ) ) ;
#44 = PRESENTATION_LAYER_ASSIGNMENT (  '', '', ( #79 ) ) ;
#45 = EDGE_LOOP ( 'NONE', ( #65, #125, #122, #197 ) ) ;
#46 = VECTOR ( 'NONE', #196, 1000.000000000000000 ) ;
#47 = LINE ( 'NONE', #87, #91 ) ;
#48 = ORIENTED_EDGE ( 'NONE', *, *, #135, .F. ) ;
#49 = SURFACE_STYLE_USAGE ( .BOTH. , #166 ) ;
#50 = DIRECTION ( 'NONE',  ( 0.0000000000000000000, -1.000000000000000000, 0.0000000000000000000 ) ) ;
#51 = LINE ( 'NONE', #186, #29 ) ;
#52 = CARTESIAN_POINT ( 'NONE',  ( 1.500000000000001300, 4.000000000000000000, 8.000000000000000000 ) ) ;
#53 = MECHANICAL_DESIGN_GEOMETRIC_PRESENTATION_REPRESENTATION (  '', ( #140 ), #59 ) ;
#54 = SURFACE_SIDE_STYLE ('',( #86 ) ) ;
#55 = CARTESIAN_POINT ( 'NONE',  ( -1.500000000000001300, 0.0000000000000000000, 8.000000000000000000 ) ) ;
#56 = EDGE_CURVE ( 'NONE', #187, #92, #199, .T. ) ;
#57 = PRODUCT_DEFINITION_CONTEXT ( 'detailed design', #194, 'design' ) ;
#58 = DIRECTION ( 'NONE',  ( -3.252606517456510300E-016, -1.000000000000000000, 0.0000000000000000000 ) ) ;
#59 =( GEOMETRIC_REPRESENTATION_CONTEXT ( 3 ) GLOBAL_UNCERTAINTY_ASSIGNED_CONTEXT ( ( #110 ) ) GLOBAL_UNIT_ASSIGNED_CONTEXT ( ( #141, #163, #5 ) ) REPRESENTATION_CONTEXT ( 'NONE', 'WORKASPACE' ) );
#60 = VECTOR ( 'NONE', #20, 1000.000000000000000 ) ;
#61 = FILL_AREA_STYLE ('',( #181 ) ) ;
#62 = DIRECTION ( 'NONE',  ( -0.0000000000000000000, -0.0000000000000000000, -1.000000000000000000 ) ) ;
#63 = LINE ( 'NONE', #82, #161 ) ;
#64 = DIRECTION ( 'NONE',  ( 1.000000000000000000, 0.0000000000000000000, -0.0000000000000000000 ) ) ;
#65 = ORIENTED_EDGE ( 'NONE', *, *, #12, .T. ) ;
#66 = CARTESIAN_POINT ( 'NONE',  ( 1.500000000000001300, 0.0000000000000000000, 0.0000000000000000000 ) ) ;
#67 = CARTESIAN_POINT ( 'NONE',  ( -1.500000000000001300, 0.0000000000000000000, 8.000000000000000000 ) ) ;
#68 = DIRECTION ( 'NONE',  ( 0.0000000000000000000, -1.000000000000000000, 0.0000000000000000000 ) ) ;
#69 = ORIENTED_EDGE ( 'NONE', *, *, #144, .F. ) ;
#70 = FACE_OUTER_BOUND ( 'NONE', #112, .T. ) ;
#71 = ADVANCED_BREP_SHAPE_REPRESENTATION ( 'Z-RFC48-P03', ( #17, #39 ), #7 ) ;
#72 = EDGE_LOOP ( 'NONE', ( #48, #21, #126, #40 ) ) ;
#73 = EDGE_CURVE ( 'NONE', #80, #105, #133, .T. ) ;
#74 = ORIENTED_EDGE ( 'NONE', *, *, #73, .T. ) ;
#75 = FACE_OUTER_BOUND ( 'NONE', #43, .T. ) ;
#76 = AXIS2_PLACEMENT_3D ( 'NONE', #111, #27, #169 ) ;
#77 = FACE_OUTER_BOUND ( 'NONE', #95, .T. ) ;
#78 = PRODUCT ( 'Z-RFC48-P03', 'Z-RFC48-P03', '', ( #100 ) ) ;
#79 = STYLED_ITEM ( 'NONE', ( #159 ), #71 ) ;
#80 = VERTEX_POINT ( 'NONE', #67 ) ;
#81 = APPLICATION_PROTOCOL_DEFINITION ( 'draft international standard', 'automotive_design', 1998, #194 ) ;
#82 = CARTESIAN_POINT ( 'NONE',  ( 1.500000000000001300, 4.000000000000000000, 8.000000000000000000 ) ) ;
#83 = CARTESIAN_POINT ( 'NONE',  ( 1.500000000000001300, 4.000000000000000000, 8.000000000000000000 ) ) ;
#84 = DIRECTION ( 'NONE',  ( -1.000000000000000000, 0.0000000000000000000, -0.0000000000000000000 ) ) ;
#85 = PLANE ( 'NONE',  #117 ) ;
#86 = SURFACE_STYLE_FILL_AREA ( #173 ) ;
#87 = CARTESIAN_POINT ( 'NONE',  ( -1.500000000000001300, 0.0000000000000000000, 8.000000000000000000 ) ) ;
#88 = ORIENTED_EDGE ( 'NONE', *, *, #192, .T. ) ;
#89 = ORIENTED_EDGE ( 'NONE', *, *, #35, .F. ) ;
#90 = SURFACE_STYLE_USAGE ( .BOTH. , #54 ) ;
#91 = VECTOR ( 'NONE', #191, 1000.000000000000000 ) ;
#92 = VERTEX_POINT ( 'NONE', #1 ) ;
#93 = AXIS2_PLACEMENT_3D ( 'NONE', #55, #147, #58 ) ;
#94 = EDGE_LOOP ( 'NONE', ( #6, #4, #24, #97 ) ) ;
#95 = EDGE_LOOP ( 'NONE', ( #150, #172, #127, #190 ) ) ;
#96 = ADVANCED_FACE ( 'NONE', ( #70 ), #85, .F. ) ;
#97 = ORIENTED_EDGE ( 'NONE', *, *, #142, .T. ) ;
#98 = FACE_OUTER_BOUND ( 'NONE', #45, .T. ) ;
#99 = CARTESIAN_POINT ( 'NONE',  ( -1.500000000000001300, 0.0000000000000000000, 0.0000000000000000000 ) ) ;
#100 = PRODUCT_CONTEXT ( 'NONE', #180, 'mechanical' ) ;
#101 = CARTESIAN_POINT ( 'NONE',  ( 0.0000000000000000000, 0.0000000000000000000, 0.0000000000000000000 ) ) ;
#102 = PLANE ( 'NONE',  #171 ) ;
#103 = PLANE ( 'NONE',  #201 ) ;
#104 = UNCERTAINTY_MEASURE_WITH_UNIT (LENGTH_MEASURE( 1.000000000000000100E-005 ), #18, 'distance_accuracy_value', 'NONE');
#105 = VERTEX_POINT ( 'NONE', #185 ) ;
#106 = ADVANCED_FACE ( 'NONE', ( #75 ), #103, .F. ) ;
#107 = CARTESIAN_POINT ( 'NONE',  ( 1.500000000000001300, 4.000000000000000000, 8.000000000000000000 ) ) ;
#108 = CLOSED_SHELL ( 'NONE', ( #19, #31, #148, #96, #106, #42 ) ) ;
#109 = FACE_OUTER_BOUND ( 'NONE', #94, .T. ) ;
#110 = UNCERTAINTY_MEASURE_WITH_UNIT (LENGTH_MEASURE( 1.000000000000000100E-005 ), #141, 'distance_accuracy_value', 'NONE');
#111 = CARTESIAN_POINT ( 'NONE',  ( -1.500000000000001300, 0.0000000000000000000, 8.000000000000000000 ) ) ;
#112 = EDGE_LOOP ( 'NONE', ( #123, #151, #69, #88 ) ) ;
#113 = FACE_OUTER_BOUND ( 'NONE', #72, .T. ) ;
#114 = AXIS2_PLACEMENT_3D ( 'NONE', #99, #157, #38 ) ;
#115 = DIRECTION ( 'NONE',  ( 0.0000000000000000000, 0.0000000000000000000, 1.000000000000000000 ) ) ;
#116 =( GEOMETRIC_REPRESENTATION_CONTEXT ( 3 ) GLOBAL_UNCERTAINTY_ASSIGNED_CONTEXT ( ( #182 ) ) GLOBAL_UNIT_ASSIGNED_CONTEXT ( ( #153, #34, #132 ) ) REPRESENTATION_CONTEXT ( 'NONE', 'WORKASPACE' ) );
#117 = AXIS2_PLACEMENT_3D ( 'NONE', #52, #37, #137 ) ;
#118 =( NAMED_UNIT ( * ) PLANE_ANGLE_UNIT ( ) SI_UNIT ( $, .RADIAN. ) );
#119 = PRESENTATION_STYLE_ASSIGNMENT (( #90 ) ) ;
#120 = VERTEX_POINT ( 'NONE', #121 ) ;
#121 = CARTESIAN_POINT ( 'NONE',  ( 1.500000000000001300, 4.000000000000000000, 0.0000000000000000000 ) ) ;
#122 = ORIENTED_EDGE ( 'NONE', *, *, #73, .F. ) ;
#123 = ORIENTED_EDGE ( 'NONE', *, *, #179, .T. ) ;
#124 = FILL_AREA_STYLE_COLOUR ( '', #174 ) ;
#125 = ORIENTED_EDGE ( 'NONE', *, *, #142, .F. ) ;
#126 = ORIENTED_EDGE ( 'NONE', *, *, #28, .T. ) ;
#127 = ORIENTED_EDGE ( 'NONE', *, *, #152, .T. ) ;
#128 = PRODUCT_DEFINITION ( 'UNKNOWN', '', #177, #57 ) ;
#129 = VECTOR ( 'NONE', #36, 1000.000000000000000 ) ;
#130 = VERTEX_POINT ( 'NONE', #66 ) ;
#131 = PRODUCT_RELATED_PRODUCT_CATEGORY ( 'part', '', ( #78 ) ) ;
#132 =( NAMED_UNIT ( * ) SI_UNIT ( $, .STERADIAN. ) SOLID_ANGLE_UNIT ( ) );
#133 = LINE ( 'NONE', #176, #14 ) ;
#134 = CARTESIAN_POINT ( 'NONE',  ( -1.500000000000001300, 0.0000000000000000000, 8.000000000000000000 ) ) ;
#135 = EDGE_CURVE ( 'NONE', #41, #92, #25, .T. ) ;
#136 = CARTESIAN_POINT ( 'NONE',  ( 1.500000000000001300, 0.0000000000000000000, 8.000000000000000000 ) ) ;
#137 = DIRECTION ( 'NONE',  ( 1.000000000000000000, -1.156482317317870900E-015, 0.0000000000000000000 ) ) ;
#138 = LINE ( 'NONE', #134, #165 ) ;
#139 = CARTESIAN_POINT ( 'NONE',  ( -1.500000000000000000, 4.000000000000003600, 8.000000000000000000 ) ) ;
#140 = STYLED_ITEM ( 'NONE', ( #119 ), #17 ) ;
#141 =( LENGTH_UNIT ( ) NAMED_UNIT ( * ) SI_UNIT ( .MILLI., .METRE. ) );
#142 = EDGE_CURVE ( 'NONE', #105, #130, #149, .T. ) ;
#143 = PLANE ( 'NONE',  #76 ) ;
#144 = EDGE_CURVE ( 'NONE', #3, #187, #175, .T. ) ;
#145 = LINE ( 'NONE', #155, #60 ) ;
#146 = COLOUR_RGB ( '',0.4000000000000000200, 0.8039215686274510100, 1.000000000000000000 ) ;
#147 = DIRECTION ( 'NONE',  ( -1.000000000000000000, 3.252606517456510300E-016, 0.0000000000000000000 ) ) ;
#148 = ADVANCED_FACE ( 'NONE', ( #109 ), #102, .T. ) ;
#149 = LINE ( 'NONE', #136, #32 ) ;
#150 = ORIENTED_EDGE ( 'NONE', *, *, #135, .T. ) ;
#151 = ORIENTED_EDGE ( 'NONE', *, *, #56, .F. ) ;
#152 = EDGE_CURVE ( 'NONE', #120, #130, #164, .T. ) ;
#153 =( LENGTH_UNIT ( ) NAMED_UNIT ( * ) SI_UNIT ( .MILLI., .METRE. ) );
#154 = CARTESIAN_POINT ( 'NONE',  ( 1.500000000000001300, 4.000000000000000000, 0.0000000000000000000 ) ) ;
#155 = CARTESIAN_POINT ( 'NONE',  ( 1.500000000000001300, 4.000000000000000000, 0.0000000000000000000 ) ) ;
#156 = CARTESIAN_POINT ( 'NONE',  ( -1.500000000000001300, 0.0000000000000000000, 0.0000000000000000000 ) ) ;
#157 = DIRECTION ( 'NONE',  ( 0.0000000000000000000, 0.0000000000000000000, -1.000000000000000000 ) ) ;
#158 = VECTOR ( 'NONE', #200, 1000.000000000000000 ) ;
#159 = PRESENTATION_STYLE_ASSIGNMENT (( #49 ) ) ;
#160 = PRODUCT_DEFINITION_SHAPE ( 'NONE', 'NONE',  #128 ) ;
#161 = VECTOR ( 'NONE', #167, 1000.000000000000000 ) ;
#162 = PLANE ( 'NONE',  #93 ) ;
#163 =( NAMED_UNIT ( * ) PLANE_ANGLE_UNIT ( ) SI_UNIT ( $, .RADIAN. ) );
#164 = LINE ( 'NONE', #154, #193 ) ;
#165 = VECTOR ( 'NONE', #62, 1000.000000000000000 ) ;
#166 = SURFACE_SIDE_STYLE ('',( #15 ) ) ;
#167 = DIRECTION ( 'NONE',  ( -0.0000000000000000000, -0.0000000000000000000, -1.000000000000000000 ) ) ;
#168 = DIRECTION ( 'NONE',  ( -0.0000000000000000000, 0.0000000000000000000, -1.000000000000000000 ) ) ;
#169 = DIRECTION ( 'NONE',  ( 0.0000000000000000000, -0.0000000000000000000, 1.000000000000000000 ) ) ;
#170 = CARTESIAN_POINT ( 'NONE',  ( -1.500000000000001300, 0.0000000000000000000, 0.0000000000000000000 ) ) ;
#171 = AXIS2_PLACEMENT_3D ( 'NONE', #83, #64, #168 ) ;
#172 = ORIENTED_EDGE ( 'NONE', *, *, #179, .F. ) ;
#173 = FILL_AREA_STYLE ('',( #124 ) ) ;
#174 = COLOUR_RGB ( '',0.4000000000000000200, 0.8039215686274510100, 1.000000000000000000 ) ;
#175 = LINE ( 'NONE', #11, #158 ) ;
#176 = CARTESIAN_POINT ( 'NONE',  ( -1.500000000000001300, 0.0000000000000000000, 8.000000000000000000 ) ) ;
#177 = PRODUCT_DEFINITION_FORMATION_WITH_SPECIFIED_SOURCE ( 'ANY', '', #78, .NOT_KNOWN. ) ;
#178 = PLANE ( 'NONE',  #114 ) ;
#179 = EDGE_CURVE ( 'NONE', #120, #92, #145, .T. ) ;
#180 = APPLICATION_CONTEXT ( 'automotive_design' ) ;
#181 = FILL_AREA_STYLE_COLOUR ( '', #146 ) ;
#182 = UNCERTAINTY_MEASURE_WITH_UNIT (LENGTH_MEASURE( 1.000000000000000100E-005 ), #153, 'distance_accuracy_value', 'NONE');
#183 = SHAPE_DEFINITION_REPRESENTATION ( #160, #71 ) ;
#184 = DIRECTION ( 'NONE',  ( -0.0000000000000000000, -0.0000000000000000000, -1.000000000000000000 ) ) ;
#185 = CARTESIAN_POINT ( 'NONE',  ( 1.500000000000001300, 0.0000000000000000000, 8.000000000000000000 ) ) ;
#186 = CARTESIAN_POINT ( 'NONE',  ( 1.500000000000001300, 4.000000000000000000, 8.000000000000000000 ) ) ;
#187 = VERTEX_POINT ( 'NONE', #10 ) ;
#188 = ORIENTED_EDGE ( 'NONE', *, *, #144, .T. ) ;
#189 = EDGE_CURVE ( 'NONE', #80, #41, #138, .T. ) ;
#190 = ORIENTED_EDGE ( 'NONE', *, *, #12, .F. ) ;
#191 = DIRECTION ( 'NONE',  ( 3.252606517456510300E-016, 1.000000000000000000, 0.0000000000000000000 ) ) ;
#192 = EDGE_CURVE ( 'NONE', #3, #120, #63, .T. ) ;
#193 = VECTOR ( 'NONE', #50, 1000.000000000000000 ) ;
#194 = APPLICATION_CONTEXT ( 'automotive_design' ) ;
#195 = APPLICATION_PROTOCOL_DEFINITION ( 'draft international standard', 'automotive_design', 1998, #180 ) ;
#196 = DIRECTION ( 'NONE',  ( -0.0000000000000000000, -0.0000000000000000000, -1.000000000000000000 ) ) ;
#197 = ORIENTED_EDGE ( 'NONE', *, *, #189, .T. ) ;
#198 = ORIENTED_EDGE ( 'NONE', *, *, #28, .F. ) ;
#199 = LINE ( 'NONE', #139, #46 ) ;
#200 = DIRECTION ( 'NONE',  ( -1.000000000000000000, 1.156482317317870900E-015, 0.0000000000000000000 ) ) ;
#201 = AXIS2_PLACEMENT_3D ( 'NONE', #22, #202, #84 ) ;
#202 = DIRECTION ( 'NONE',  ( 0.0000000000000000000, 0.0000000000000000000, -1.000000000000000000 ) ) ;
ENDSEC;
END-ISO-10303-21;
